Dedilhado do louvor "Espírito Santo" de Fernanda Brum

Para ver a cifra completa do louvor "Espírito Santo" de Fernanda Brum clique aqui!


 


Abaixo segue o dedilhado do louvor passo a passo:

Dedilhado da introdução simplificado:

    G                         G/B           C                  G
E|---------------0------0-2-------2-3--3-2---------------------------------
B|-0----0--1--3--------------0-0-----------3-------------------------------
G|------------------0-0----------------------------------------------------
D|---------------------------------------0---------------------------------
A|---------------3--------2------------------------------------------------
E|-3--------------------------------0--------------------------------------
      Am7                         G/B            G
E|-0------------------------------------------------3-2--0-----------------
B|----1--0-1-0----------0-1--0-1-3--------0-------3---------3--------------
G|--------------0--2--2-------------0-0-----2-0-0--------------------------
D|-----------------0-------------------------------------------------------
A|-0--0-------------------0------2----3------------------------------------
E|-----------3----------------------------------3-----------3--------------

Dedilhado - Primeira Parte:
  G5                                               G/B             C9                            G/B
E|-------------------------------------------------------------------------
B|-----3-------3-------3---------3---------3-------3-------3---------3-----
G|---0---0---0---0---0---0-----0---0-----0---0---0---0---0---0-----0---0---
D|-------------------------------------------------------------------------
A|---------------------------2---------3-------3-------2---------2---------
E|-3-------3-------3-------------------------------------------------------
    Am7                              D5                              G4   G5    D5       
E|-------------------------------------------------------------------------
B|-----1-------1---------1-------1-----1---0--------1-------1--------------
G|---0---0---0---0-----2---2---2---2---0---0------2---2----2---2-----------
D|-------------------0-------0-----------------0--------0------------------
A|-0-------0---------------------------------------------------------------
E|-------------------------------------3---3-------------------------------
 Am7                                 D5                                G4   G5                Am7          G/B      
E|-------------------------------------------------------------------------
B|-----1-------1-----------1-------1-----1---0-----3-------3-----1---3-----
G|---0---0---0---0-------2---2---2---2---0---0---0---0---0---0-------------
D|---------------------0-------0-------------------------------------------
A|-0-------0-----------------------------------------------------0---2-----
E|---------------------------------------3---3---------3-------------------


Dedilhado - Segunda parte:

     C7m                         D7/C                          Bm                             E5
E|-----0-------0--------2-------2--------2-------2---------0-------0-------
B|---0---0---0---0----3---3---3---3----3---3---3---3-----0---0---0---0-----
G|-------------------------------------------------------------------------
D|-------------------------------------------------------------------------
A|-3-------3--------3-------3--------2-------2-----------------------------
E|----------------------------------------------------0-------0------------

  Am7                           D9(7)                              Dm7                          G5               G/B
E|-----0-------0---------0-------0----------1-------1----------------------
B|---1---1---1---1-----1---1---1---1------1---1---1---1------3---------3---
G|---------------------------------------------------------0---0-----0---0-
D|-------------------0-------0----------0-------0--------------------------
A|-0-------0-------------------------------------------------------2-------
E|-------------------------------------------------------3-----------------

  C9                            Bm7                             Em             D9             A
E|-------------------------------------------------------------------------
B|-----3-------3--------0-------0---------0--------3--------2-------2------
G|---0---0---0---0----2---2---2---2-----0---0----2---2----2---2---2---2----
D|---------------------------------------------0---------------------------
A|-3-------3--------2-------2---------------------------0-------0----------
E|------------------------------------0------------------------------------
 
  Am7                           D5                              G5
E|-------------------------------------------------------------------------
B|-----1-------1--------1-------1---------3--------3-----------------------
G|---0---0---0---0----2---2---2---2-----0---0----0---0---------------------
D|------------------0-------0----------------------------------------------
A|-0-------0---------------------------------------------------------------
E|------------------------------------3--------3---------------------------


Dedilhado - Refrão:

     Em                              C9             G/B              Am7              D5               G5
E|------------------------------------------------------------------------
B|-----0-------0---------3--------3----------1---------1---------3--------
G|---0---0---0---0-----0---0----0---0------0---0-----2---2-----0---0------
D|-------------------------------------------------0----------------------
A|-------------------3--------2----------0--------------------------------
E|-0-------0-------------------------------------------------3------------  


Após o refrão repete o dedilhado da introdução com a variação abaixo na parte final do dedilhado

  G                 G/B
E|-----------3-2--0--------------------------------------------------------
B|-0-----------------3--1--3-----------------------------------------------
G|---2-0-0-----------------------------------------------------------------
D|-------------------------------------------------------------------------
A|----------------------0--2-----------------------------------------------
E|-------3-----------3-----------------------------------------------------

Repete a música a partir daqui:
...C9                               Bm7
...Todas as coisas cooperam pra o bem + Refrão

Dedilhado Final:
    G                C
E|----------0-------------------------------------------------------------- B|-0-0-1-3-----3--1------0------------------------------------------------- G|--------------------2---------------------------------------------------- D|----------------0-------------------------------------------------------- A|----------3-------------------------------------------------------------- E|-3---------------------3-------------------------------------------------
Related Posts Plugin for WordPress, Blogger...

Postagens mais visitadas deste blog

Ritmos básicos para violão gospel, "Levadas"!